ISO-10303-21;
HEADER;
/* Generated by software containing ST-Developer
 * from STEP Tools, Inc. (www.steptools.com) 
 */
/* OPTION: using custom renumber hook */

FILE_DESCRIPTION(
/* description */ ('STEP AP214'),
/* implementation_level */ '2;1');

FILE_NAME(
/* name */ 'BLPS6-30',
/* time_stamp */ '2025-02-12T08:24:25+01:00',
/* author */ ('License CC BY-ND 4.0'),
/* organization */ ('CADENAS'),
/* preprocessor_version */ 'ST-DEVELOPER v19.3',
/* originating_system */ 'PARTsolutions',
/* authorisation */ '  ');

FILE_SCHEMA (('AUTOMOTIVE_DESIGN {1 0 10303 214 3 1 1}'));
ENDSEC;

DATA;
#10=PROPERTY_DEFINITION_REPRESENTATION(#14,#12);
#11=PROPERTY_DEFINITION_REPRESENTATION(#15,#13);
#12=REPRESENTATION('',(#16),#287);
#13=REPRESENTATION('',(#17),#287);
#14=PROPERTY_DEFINITION('pmi validation property','',#292);
#15=PROPERTY_DEFINITION('pmi validation property','',#292);
#16=VALUE_REPRESENTATION_ITEM('number of annotations',COUNT_MEASURE(0.));
#17=VALUE_REPRESENTATION_ITEM('number of views',COUNT_MEASURE(0.));
#18=SHAPE_REPRESENTATION_RELATIONSHIP('','',#152,#19);
#19=ADVANCED_BREP_SHAPE_REPRESENTATION('',(#150),#287);
#20=TOROIDAL_SURFACE('',#171,13.5,1.);
#21=SPHERICAL_SURFACE('',#169,1.);
#22=SPHERICAL_SURFACE('',#170,1.00000000000001);
#23=B_SPLINE_CURVE_WITH_KNOTS('',3,(#220,#221,#222,#223,#224,#225,#226,
#227,#228,#229,#230),.UNSPECIFIED.,.T.,.F.,(1,1,1,1,1,1,1,1,1,1,1,1,1,1,
1),(-0.00213011468239097,-0.00142007645492732,-0.000710038227463658,0.,
0.000710038227463658,0.00142007645492732,0.00213011468239097,0.00284015290985463,
0.00355019113731829,0.00426022936478195,0.0049702675922456,0.00568030581970926,
0.00639034404717292,0.00710038227463658,0.00781042050210024),
 .UNSPECIFIED.);
#24=B_SPLINE_CURVE_WITH_KNOTS('',3,(#232,#233,#234,#235,#236,#237,#238,
#239,#240,#241,#242),.UNSPECIFIED.,.T.,.F.,(1,1,1,1,1,1,1,1,1,1,1,1,1,1,
1),(-0.00213011468239097,-0.00142007645492732,-0.000710038227463658,0.,
0.000710038227463658,0.00142007645492732,0.00213011468239097,0.00284015290985463,
0.00355019113731829,0.00426022936478195,0.00497026759224561,0.00568030581970926,
0.00639034404717292,0.00710038227463658,0.00781042050210024),
 .UNSPECIFIED.);
#25=B_SPLINE_CURVE_WITH_KNOTS('',3,(#253,#254,#255,#256,#257,#258,#259,
#260,#261,#262,#263,#264),.UNSPECIFIED.,.T.,.F.,(1,1,1,1,1,1,1,1,1,1,1,
1,1,1,1,1),(-0.00246096023081856,-0.00164064015387904,-0.000820320076939518,
0.,0.000820320076939518,0.00164064015387904,0.00246096023081855,0.00287112026928831,
0.00328128030775807,0.00410160038469759,0.00492192046163711,0.00574224053857663,
0.00656256061551615,0.00738288069245566,0.00820320076939518,0.0090235208463347),
 .UNSPECIFIED.);
#26=B_SPLINE_CURVE_WITH_KNOTS('',3,(#266,#267,#268,#269,#270,#271,#272,
#273,#274,#275,#276,#277),.UNSPECIFIED.,.T.,.F.,(1,1,1,1,1,1,1,1,1,1,1,
1,1,1,1,1),(-0.00246208055624213,-0.00164138703749475,-0.000820693518747376,
0.,0.000820693518747376,0.00164138703749475,0.00246208055624213,0.0032827740749895,
0.00369312083436319,0.00410346759373688,0.00492416111248425,0.00574485463123163,
0.00656554814997901,0.00738624166872638,0.00820693518747376,0.00902762870622113),
 .UNSPECIFIED.);
#27=CYLINDRICAL_SURFACE('',#158,2.99999999999999);
#28=CYLINDRICAL_SURFACE('',#164,5.50000000000001);
#29=CONICAL_SURFACE('',#156,2.25,0.349065850398866);
#30=CONICAL_SURFACE('',#162,5.,0.785398163397448);
#31=CONICAL_SURFACE('',#166,5.50000000000001,0.785398163397448);
#32=ORIENTED_EDGE('',*,*,#54,.F.);
#33=ORIENTED_EDGE('',*,*,#55,.F.);
#34=ORIENTED_EDGE('',*,*,#54,.T.);
#35=ORIENTED_EDGE('',*,*,#56,.F.);
#36=ORIENTED_EDGE('',*,*,#57,.T.);
#37=ORIENTED_EDGE('',*,*,#58,.T.);
#38=ORIENTED_EDGE('',*,*,#55,.T.);
#39=ORIENTED_EDGE('',*,*,#59,.F.);
#40=ORIENTED_EDGE('',*,*,#56,.T.);
#41=ORIENTED_EDGE('',*,*,#60,.F.);
#42=ORIENTED_EDGE('',*,*,#59,.T.);
#43=ORIENTED_EDGE('',*,*,#61,.F.);
#44=ORIENTED_EDGE('',*,*,#62,.T.);
#45=ORIENTED_EDGE('',*,*,#63,.T.);
#46=ORIENTED_EDGE('',*,*,#60,.T.);
#47=ORIENTED_EDGE('',*,*,#64,.F.);
#48=ORIENTED_EDGE('',*,*,#61,.T.);
#49=ORIENTED_EDGE('',*,*,#64,.T.);
#50=ORIENTED_EDGE('',*,*,#58,.F.);
#51=ORIENTED_EDGE('',*,*,#57,.F.);
#52=ORIENTED_EDGE('',*,*,#62,.F.);
#53=ORIENTED_EDGE('',*,*,#63,.F.);
#54=EDGE_CURVE('',#65,#65,#76,.T.);
#55=EDGE_CURVE('',#66,#66,#77,.T.);
#56=EDGE_CURVE('',#67,#67,#78,.T.);
#57=EDGE_CURVE('',#68,#68,#23,.T.);
#58=EDGE_CURVE('',#69,#69,#24,.T.);
#59=EDGE_CURVE('',#70,#70,#79,.T.);
#60=EDGE_CURVE('',#71,#71,#80,.T.);
#61=EDGE_CURVE('',#72,#72,#81,.T.);
#62=EDGE_CURVE('',#73,#73,#25,.T.);
#63=EDGE_CURVE('',#74,#74,#26,.T.);
#64=EDGE_CURVE('',#75,#75,#82,.T.);
#65=VERTEX_POINT('',#213);
#66=VERTEX_POINT('',#216);
#67=VERTEX_POINT('',#219);
#68=VERTEX_POINT('',#231);
#69=VERTEX_POINT('',#243);
#70=VERTEX_POINT('',#246);
#71=VERTEX_POINT('',#249);
#72=VERTEX_POINT('',#252);
#73=VERTEX_POINT('',#265);
#74=VERTEX_POINT('',#278);
#75=VERTEX_POINT('',#281);
#76=CIRCLE('',#155,2.25);
#77=CIRCLE('',#157,3.);
#78=CIRCLE('',#159,2.99999999999999);
#79=CIRCLE('',#161,5.);
#80=CIRCLE('',#163,5.50000000000001);
#81=CIRCLE('',#165,5.50000000000001);
#82=CIRCLE('',#167,5.00000000000001);
#83=EDGE_LOOP('',(#32));
#84=EDGE_LOOP('',(#33));
#85=EDGE_LOOP('',(#34));
#86=EDGE_LOOP('',(#35));
#87=EDGE_LOOP('',(#36));
#88=EDGE_LOOP('',(#37));
#89=EDGE_LOOP('',(#38));
#90=EDGE_LOOP('',(#39));
#91=EDGE_LOOP('',(#40));
#92=EDGE_LOOP('',(#41));
#93=EDGE_LOOP('',(#42));
#94=EDGE_LOOP('',(#43));
#95=EDGE_LOOP('',(#44));
#96=EDGE_LOOP('',(#45));
#97=EDGE_LOOP('',(#46));
#98=EDGE_LOOP('',(#47));
#99=EDGE_LOOP('',(#48));
#100=EDGE_LOOP('',(#49));
#101=EDGE_LOOP('',(#50));
#102=EDGE_LOOP('',(#51));
#103=EDGE_LOOP('',(#52));
#104=EDGE_LOOP('',(#53));
#105=FACE_BOUND('',#83,.T.);
#106=FACE_BOUND('',#84,.T.);
#107=FACE_BOUND('',#85,.T.);
#108=FACE_BOUND('',#86,.T.);
#109=FACE_BOUND('',#87,.T.);
#110=FACE_BOUND('',#88,.T.);
#111=FACE_BOUND('',#89,.T.);
#112=FACE_BOUND('',#90,.T.);
#113=FACE_BOUND('',#91,.T.);
#114=FACE_BOUND('',#92,.T.);
#115=FACE_BOUND('',#93,.T.);
#116=FACE_BOUND('',#94,.T.);
#117=FACE_BOUND('',#95,.T.);
#118=FACE_BOUND('',#96,.T.);
#119=FACE_BOUND('',#97,.T.);
#120=FACE_BOUND('',#98,.T.);
#121=FACE_BOUND('',#99,.T.);
#122=FACE_BOUND('',#100,.T.);
#123=FACE_BOUND('',#101,.T.);
#124=FACE_BOUND('',#102,.T.);
#125=FACE_BOUND('',#103,.T.);
#126=FACE_BOUND('',#104,.T.);
#127=PLANE('',#154);
#128=PLANE('',#160);
#129=PLANE('',#168);
#130=ADVANCED_FACE('',(#105),#127,.F.);
#131=ADVANCED_FACE('',(#106,#107),#29,.T.);
#132=ADVANCED_FACE('',(#108,#109,#110,#111),#27,.T.);
#133=ADVANCED_FACE('',(#112,#113),#128,.F.);
#134=ADVANCED_FACE('',(#114,#115),#30,.T.);
#135=ADVANCED_FACE('',(#116,#117,#118,#119),#28,.T.);
#136=ADVANCED_FACE('',(#120,#121),#31,.T.);
#137=ADVANCED_FACE('',(#122),#129,.F.);
#138=ADVANCED_FACE('',(#123),#21,.T.);
#139=ADVANCED_FACE('',(#124),#22,.T.);
#140=ADVANCED_FACE('',(#125,#126),#20,.T.);
#141=CLOSED_SHELL('',(#130,#131,#132,#133,#134,#135,#136,#137,#138,#139,
#140));
#142=STYLED_ITEM('',(#143),#150);
#143=PRESENTATION_STYLE_ASSIGNMENT((#144));
#144=SURFACE_STYLE_USAGE(.BOTH.,#145);
#145=SURFACE_SIDE_STYLE('',(#146));
#146=SURFACE_STYLE_FILL_AREA(#147);
#147=FILL_AREA_STYLE('',(#148));
#148=FILL_AREA_STYLE_COLOUR('',#149);
#149=COLOUR_RGB('',0.689999997615814,0.689999997615814,0.689999997615814);
#150=MANIFOLD_SOLID_BREP('BLPS6-30',#141);
#151=SHAPE_DEFINITION_REPRESENTATION(#292,#152);
#152=SHAPE_REPRESENTATION('BLPS6-30',(#153),#287);
#153=AXIS2_PLACEMENT_3D('',#210,#172,#173);
#154=AXIS2_PLACEMENT_3D('',#211,#174,#175);
#155=AXIS2_PLACEMENT_3D('',#212,#176,#177);
#156=AXIS2_PLACEMENT_3D('',#214,#178,#179);
#157=AXIS2_PLACEMENT_3D('',#215,#180,#181);
#158=AXIS2_PLACEMENT_3D('',#217,#182,#183);
#159=AXIS2_PLACEMENT_3D('',#218,#184,#185);
#160=AXIS2_PLACEMENT_3D('',#244,#186,#187);
#161=AXIS2_PLACEMENT_3D('',#245,#188,#189);
#162=AXIS2_PLACEMENT_3D('',#247,#190,#191);
#163=AXIS2_PLACEMENT_3D('',#248,#192,#193);
#164=AXIS2_PLACEMENT_3D('',#250,#194,#195);
#165=AXIS2_PLACEMENT_3D('',#251,#196,#197);
#166=AXIS2_PLACEMENT_3D('',#279,#198,#199);
#167=AXIS2_PLACEMENT_3D('',#280,#200,#201);
#168=AXIS2_PLACEMENT_3D('',#282,#202,#203);
#169=AXIS2_PLACEMENT_3D('',#283,#204,#205);
#170=AXIS2_PLACEMENT_3D('',#284,#206,#207);
#171=AXIS2_PLACEMENT_3D('',#285,#208,#209);
#172=DIRECTION('',(0.,0.,1.));
#173=DIRECTION('',(1.,0.,0.));
#174=DIRECTION('',(1.,0.,0.));
#175=DIRECTION('',(0.,0.,-1.));
#176=DIRECTION('',(1.,0.,0.));
#177=DIRECTION('',(0.,0.,-1.));
#178=DIRECTION('',(1.,0.,0.));
#179=DIRECTION('',(0.,0.,-1.));
#180=DIRECTION('',(1.,0.,0.));
#181=DIRECTION('',(0.,0.,-1.));
#182=DIRECTION('',(1.,0.,0.));
#183=DIRECTION('',(0.,0.,-1.));
#184=DIRECTION('',(1.,0.,0.));
#185=DIRECTION('',(0.,0.,-1.));
#186=DIRECTION('',(1.,0.,0.));
#187=DIRECTION('',(0.,0.,-1.));
#188=DIRECTION('',(1.,0.,0.));
#189=DIRECTION('',(0.,0.,-1.));
#190=DIRECTION('',(1.,0.,0.));
#191=DIRECTION('',(0.,0.,-1.));
#192=DIRECTION('',(1.,0.,0.));
#193=DIRECTION('',(0.,0.,-1.));
#194=DIRECTION('',(1.,0.,0.));
#195=DIRECTION('',(0.,0.,-1.));
#196=DIRECTION('',(1.,0.,0.));
#197=DIRECTION('',(0.,0.,-1.));
#198=DIRECTION('',(-1.,0.,0.));
#199=DIRECTION('',(0.,0.,1.));
#200=DIRECTION('',(1.,0.,0.));
#201=DIRECTION('',(0.,0.,-1.));
#202=DIRECTION('',(-1.,0.,0.));
#203=DIRECTION('',(0.,0.,1.));
#204=DIRECTION('',(0.,-1.,0.));
#205=DIRECTION('',(1.,0.,0.));
#206=DIRECTION('',(0.,-1.,0.));
#207=DIRECTION('',(1.,0.,0.));
#208=DIRECTION('',(0.,0.,-1.));
#209=DIRECTION('',(-1.,0.,0.));
#210=CARTESIAN_POINT('',(0.,0.,0.));
#211=CARTESIAN_POINT('',(-37.,0.,0.));
#212=CARTESIAN_POINT('',(-37.,0.,0.));
#213=CARTESIAN_POINT('',(-37.,0.,-2.25));
#214=CARTESIAN_POINT('',(-37.,0.,0.));
#215=CARTESIAN_POINT('',(-34.939391935409,0.,0.));
#216=CARTESIAN_POINT('',(-34.939391935409,0.,-3.));
#217=CARTESIAN_POINT('',(22.,0.,0.));
#218=CARTESIAN_POINT('',(0.,0.,0.));
#219=CARTESIAN_POINT('',(0.,0.,-2.99999999999999));
#220=CARTESIAN_POINT('',(-30.2981054466722,2.93158539532437,-0.716503329431903));
#221=CARTESIAN_POINT('',(-30.0519402412929,3.03411824740147,0.000468119148707335));
#222=CARTESIAN_POINT('',(-30.2979811322214,2.93194167262263,0.714630852837074));
#223=CARTESIAN_POINT('',(-30.9971605241931,2.80911142335978,1.04742458569903));
#224=CARTESIAN_POINT('',(-31.7021489159825,2.93161683609581,0.716156218118217));
#225=CARTESIAN_POINT('',(-31.9476955277396,3.03403455836936,0.000582337814804714));
#226=CARTESIAN_POINT('',(-31.7032195308964,2.93224428441228,-0.713663068037461));
#227=CARTESIAN_POINT('',(-31.002624886804,2.80904374522738,-1.04757940533916));
#228=CARTESIAN_POINT('',(-30.2981054466722,2.93158539532437,-0.716503329431903));
#229=CARTESIAN_POINT('',(-30.0519402412929,3.03411824740147,0.000468119148707335));
#230=CARTESIAN_POINT('',(-30.2979811322214,2.93194167262263,0.714630852837074));
#231=CARTESIAN_POINT('',(-30.1339745906775,3.00000000959214,0.));
#232=CARTESIAN_POINT('',(-31.7018945533278,-2.93158539532437,-0.716503329431905));
#233=CARTESIAN_POINT('',(-31.9480597587071,-3.03411824740147,0.000468119148708433));
#234=CARTESIAN_POINT('',(-31.7020188677786,-2.93194167262263,0.714630852837071));
#235=CARTESIAN_POINT('',(-31.0028394758069,-2.80911142335978,1.04742458569903));
#236=CARTESIAN_POINT('',(-30.2978510840175,-2.93161683609581,0.716156218118216));
#237=CARTESIAN_POINT('',(-30.0523044722604,-3.03403455836936,0.000582337814806098));
#238=CARTESIAN_POINT('',(-30.2967804691036,-2.93224428441228,-0.713663068037466));
#239=CARTESIAN_POINT('',(-30.997375113196,-2.80904374522738,-1.04757940533915));
#240=CARTESIAN_POINT('',(-31.7018945533278,-2.93158539532437,-0.716503329431905));
#241=CARTESIAN_POINT('',(-31.9480597587071,-3.03411824740147,0.000468119148708433));
#242=CARTESIAN_POINT('',(-31.7020188677786,-2.93194167262263,0.714630852837071));
#243=CARTESIAN_POINT('',(-31.8660254093225,-3.00000000959215,0.));
#244=CARTESIAN_POINT('',(0.,2.99999999999999,0.));
#245=CARTESIAN_POINT('',(0.,0.,0.));
#246=CARTESIAN_POINT('',(0.,0.,-5.));
#247=CARTESIAN_POINT('',(0.,0.,0.));
#248=CARTESIAN_POINT('',(0.5,0.,0.));
#249=CARTESIAN_POINT('',(0.5,0.,-5.50000000000001));
#250=CARTESIAN_POINT('',(22.,0.,0.));
#251=CARTESIAN_POINT('',(21.5,0.,0.));
#252=CARTESIAN_POINT('',(21.5,0.,-5.50000000000001));
#253=CARTESIAN_POINT('',(17.6194312615033,5.48813338978463,0.57415151186354));
#254=CARTESIAN_POINT('',(17.5097323066621,5.51353154212275,-0.327718277324678));
#255=CARTESIAN_POINT('',(18.1009847553462,5.41219550585469,-0.996489588489896));
#256=CARTESIAN_POINT('',(18.9778194968378,5.3999459311365,-1.04349206785208));
#257=CARTESIAN_POINT('',(19.5807170594394,5.47070822967605,-0.649099616948038));
#258=CARTESIAN_POINT('',(19.8013933984028,5.50402992337341,-0.127109769368597));
#259=CARTESIAN_POINT('',(19.7397963544495,5.49436026569588,0.439103483839107));
#260=CARTESIAN_POINT('',(19.2146447673061,5.41989979678556,0.956157238682612));
#261=CARTESIAN_POINT('',(18.3527875610899,5.39329609535734,1.0745283614827));
#262=CARTESIAN_POINT('',(17.6194312615033,5.48813338978463,0.57415151186354));
#263=CARTESIAN_POINT('',(17.5097323066621,5.51353154212275,-0.327718277324678));
#264=CARTESIAN_POINT('',(18.1009847553462,5.41219550585469,-0.996489588489896));
#265=CARTESIAN_POINT('',(17.626557540583,5.49240917735505,-0.288868530987511));
#266=CARTESIAN_POINT('',(18.1031266079147,-5.4120476825642,-0.997658966791885));
#267=CARTESIAN_POINT('',(17.5094168210087,-5.51351319050868,-0.326742921871018));
#268=CARTESIAN_POINT('',(17.6185513515484,-5.48835461953138,0.571419468350888));
#269=CARTESIAN_POINT('',(18.3508974718185,-5.39331605936612,1.07489418908395));
#270=CARTESIAN_POINT('',(19.2148642508201,-5.41993684712511,0.955541258251998));
#271=CARTESIAN_POINT('',(19.7369021961461,-5.49392903087277,0.442599076295526));
#272=CARTESIAN_POINT('',(19.8022162417969,-5.50416611407539,-0.121165597034992));
#273=CARTESIAN_POINT('',(19.5847944257621,-5.47124191486014,-0.645740897244751));
#274=CARTESIAN_POINT('',(18.9778159438532,-5.39990499073232,-1.04374283751222));
#275=CARTESIAN_POINT('',(18.1031266079147,-5.4120476825642,-0.997658966791885));
#276=CARTESIAN_POINT('',(17.5094168210087,-5.51351319050868,-0.326742921871018));
#277=CARTESIAN_POINT('',(17.6185513515484,-5.48835461953138,0.571419468350888));
#278=CARTESIAN_POINT('',(17.626557540583,-5.49240917735505,-0.288868530987511));
#279=CARTESIAN_POINT('',(21.5,0.,0.));
#280=CARTESIAN_POINT('',(22.,0.,0.));
#281=CARTESIAN_POINT('',(22.,0.,-5.00000000000001));
#282=CARTESIAN_POINT('',(22.,5.00000000000001,0.));
#283=CARTESIAN_POINT('',(-31.,-2.49999999999999,0.));
#284=CARTESIAN_POINT('',(-31.,2.49999999999999,0.));
#285=CARTESIAN_POINT('',(31.,0.,0.));
#286=MECHANICAL_DESIGN_GEOMETRIC_PRESENTATION_REPRESENTATION('',(#142),
#287);
#287=(
GEOMETRIC_REPRESENTATION_CONTEXT(3)
GLOBAL_UNCERTAINTY_ASSIGNED_CONTEXT((#288))
GLOBAL_UNIT_ASSIGNED_CONTEXT((#291,#290,#289))
REPRESENTATION_CONTEXT('BLPS6-30','TOP_LEVEL_ASSEMBLY_PART')
);
#288=UNCERTAINTY_MEASURE_WITH_UNIT(LENGTH_MEASURE(0.005),#291,
'DISTANCE_ACCURACY_VALUE','Maximum Tolerance applied to model');
#289=(
NAMED_UNIT(*)
SI_UNIT($,.STERADIAN.)
SOLID_ANGLE_UNIT()
);
#290=(
NAMED_UNIT(*)
PLANE_ANGLE_UNIT()
SI_UNIT($,.RADIAN.)
);
#291=(
LENGTH_UNIT()
NAMED_UNIT(*)
SI_UNIT(.MILLI.,.METRE.)
);
#292=PRODUCT_DEFINITION_SHAPE('','',#293);
#293=PRODUCT_DEFINITION('','',#295,#294);
#294=PRODUCT_DEFINITION_CONTEXT('',#301,'design');
#295=PRODUCT_DEFINITION_FORMATION_WITH_SPECIFIED_SOURCE('','',#297,
 .NOT_KNOWN.);
#296=PRODUCT_RELATED_PRODUCT_CATEGORY('','',(#297));
#297=PRODUCT('BLPS6-30','BLPS6-30','BLPS6-30',(#299));
#298=PRODUCT_CATEGORY('','');
#299=PRODUCT_CONTEXT('',#301,'mechanical');
#300=APPLICATION_PROTOCOL_DEFINITION('international standard',
'automotive_design',2010,#301);
#301=APPLICATION_CONTEXT(
'core data for automotive mechanical design processes');
ENDSEC;
END-ISO-10303-21;
