ISO-10303-21;
HEADER;
FILE_DESCRIPTION(('FreeCAD Model'),'2;1');
FILE_NAME('Open CASCADE Shape Model','2025-04-26T10:01:53',('Author'),(
    ''),'Open CASCADE STEP processor 7.6','FreeCAD','Unknown');
FILE_SCHEMA(('AUTOMOTIVE_DESIGN { 1 0 10303 214 1 1 1 1 }'));
ENDSEC;
DATA;
#1 = APPLICATION_PROTOCOL_DEFINITION('international standard',
  'automotive_design',2000,#2);
#2 = APPLICATION_CONTEXT(
  'core data for automotive mechanical design processes');
#3 = SHAPE_DEFINITION_REPRESENTATION(#4,#10);
#4 = PRODUCT_DEFINITION_SHAPE('','',#5);
#5 = PRODUCT_DEFINITION('design','',#6,#9);
#6 = PRODUCT_DEFINITION_FORMATION('','',#7);
#7 = PRODUCT('M101','M101','',(#8));
#8 = PRODUCT_CONTEXT('',#2,'mechanical');
#9 = PRODUCT_DEFINITION_CONTEXT('part definition',#2,'design');
#10 = ADVANCED_BREP_SHAPE_REPRESENTATION('',(#11,#15),#457);
#11 = AXIS2_PLACEMENT_3D('',#12,#13,#14);
#12 = CARTESIAN_POINT('',(0.,0.,0.));
#13 = DIRECTION('',(0.,0.,1.));
#14 = DIRECTION('',(1.,0.,-0.));
#15 = MANIFOLD_SOLID_BREP('',#16);
#16 = CLOSED_SHELL('',(#17,#68,#110,#168,#226,#254,#279,#302,#327,#352,
    #380,#408,#423,#440));
#17 = ADVANCED_FACE('',(#18,#52),#63,.F.);
#18 = FACE_BOUND('',#19,.F.);
#19 = EDGE_LOOP('',(#20,#30,#38,#46));
#20 = ORIENTED_EDGE('',*,*,#21,.T.);
#21 = EDGE_CURVE('',#22,#24,#26,.T.);
#22 = VERTEX_POINT('',#23);
#23 = CARTESIAN_POINT('',(-3.E-15,-12.5,12.5));
#24 = VERTEX_POINT('',#25);
#25 = CARTESIAN_POINT('',(-85.,-12.5,12.5));
#26 = LINE('',#27,#28);
#27 = CARTESIAN_POINT('',(-8.33E-15,-12.5,12.5));
#28 = VECTOR('',#29,1.);
#29 = DIRECTION('',(-1.,2.2E-16,-5.E-16));
#30 = ORIENTED_EDGE('',*,*,#31,.T.);
#31 = EDGE_CURVE('',#24,#32,#34,.T.);
#32 = VERTEX_POINT('',#33);
#33 = CARTESIAN_POINT('',(-85.,12.5,12.5));
#34 = LINE('',#35,#36);
#35 = CARTESIAN_POINT('',(-85.,-12.5,12.5));
#36 = VECTOR('',#37,1.);
#37 = DIRECTION('',(2.2E-16,1.,2.2E-16));
#38 = ORIENTED_EDGE('',*,*,#39,.F.);
#39 = EDGE_CURVE('',#40,#32,#42,.T.);
#40 = VERTEX_POINT('',#41);
#41 = CARTESIAN_POINT('',(3.E-15,12.5,12.5));
#42 = LINE('',#43,#44);
#43 = CARTESIAN_POINT('',(2.77E-15,12.5,12.5));
#44 = VECTOR('',#45,1.);
#45 = DIRECTION('',(-1.,2.2E-16,-5.E-16));
#46 = ORIENTED_EDGE('',*,*,#47,.F.);
#47 = EDGE_CURVE('',#22,#40,#48,.T.);
#48 = LINE('',#49,#50);
#49 = CARTESIAN_POINT('',(0.,-12.5,12.5));
#50 = VECTOR('',#51,1.);
#51 = DIRECTION('',(2.2E-16,1.,2.2E-16));
#52 = FACE_BOUND('',#53,.F.);
#53 = EDGE_LOOP('',(#54));
#54 = ORIENTED_EDGE('',*,*,#55,.F.);
#55 = EDGE_CURVE('',#56,#56,#58,.T.);
#56 = VERTEX_POINT('',#57);
#57 = CARTESIAN_POINT('',(-15.75,2.E-15,12.5));
#58 = CIRCLE('',#59,3.25);
#59 = AXIS2_PLACEMENT_3D('',#60,#61,#62);
#60 = CARTESIAN_POINT('',(-12.5,-1.032E-14,12.5));
#61 = DIRECTION('',(2.3E-16,2.E-16,-1.));
#62 = DIRECTION('',(-1.,2.E-16,-2.3E-16));
#63 = PLANE('',#64);
#64 = AXIS2_PLACEMENT_3D('',#65,#66,#67);
#65 = CARTESIAN_POINT('',(-8.33E-15,-12.5,12.5));
#66 = DIRECTION('',(6.E-17,-6.6E-16,-1.));
#67 = DIRECTION('',(4.4E-16,1.,-6.6E-16));
#68 = ADVANCED_FACE('',(#69,#94),#105,.F.);
#69 = FACE_BOUND('',#70,.F.);
#70 = EDGE_LOOP('',(#71,#81,#87,#88));
#71 = ORIENTED_EDGE('',*,*,#72,.T.);
#72 = EDGE_CURVE('',#73,#75,#77,.T.);
#73 = VERTEX_POINT('',#74);
#74 = CARTESIAN_POINT('',(-3.E-15,-12.5,-12.5));
#75 = VERTEX_POINT('',#76);
#76 = CARTESIAN_POINT('',(-85.,-12.5,-12.5));
#77 = LINE('',#78,#79);
#78 = CARTESIAN_POINT('',(-2.77E-15,-12.5,-12.5));
#79 = VECTOR('',#80,1.);
#80 = DIRECTION('',(-1.,2.2E-16,-5.E-16));
#81 = ORIENTED_EDGE('',*,*,#82,.T.);
#82 = EDGE_CURVE('',#75,#24,#83,.T.);
#83 = LINE('',#84,#85);
#84 = CARTESIAN_POINT('',(-85.,-12.5,-12.5));
#85 = VECTOR('',#86,1.);
#86 = DIRECTION('',(2.2E-16,2.2E-16,1.));
#87 = ORIENTED_EDGE('',*,*,#21,.F.);
#88 = ORIENTED_EDGE('',*,*,#89,.F.);
#89 = EDGE_CURVE('',#73,#22,#90,.T.);
#90 = LINE('',#91,#92);
#91 = CARTESIAN_POINT('',(-5.55E-15,-12.5,-12.5));
#92 = VECTOR('',#93,1.);
#93 = DIRECTION('',(2.2E-16,2.2E-16,1.));
#94 = FACE_BOUND('',#95,.F.);
#95 = EDGE_LOOP('',(#96));
#96 = ORIENTED_EDGE('',*,*,#97,.F.);
#97 = EDGE_CURVE('',#98,#98,#100,.T.);
#98 = VERTEX_POINT('',#99);
#99 = CARTESIAN_POINT('',(-75.75,-12.5,-2.E-14));
#100 = CIRCLE('',#101,3.25);
#101 = AXIS2_PLACEMENT_3D('',#102,#103,#104);
#102 = CARTESIAN_POINT('',(-72.5,-12.5,-8.55E-15));
#103 = DIRECTION('',(1.E-17,1.,0.));
#104 = DIRECTION('',(-1.,1.E-17,-2.2E-16));
#105 = PLANE('',#106);
#106 = AXIS2_PLACEMENT_3D('',#107,#108,#109);
#107 = CARTESIAN_POINT('',(-2.77E-15,-12.5,-12.5));
#108 = DIRECTION('',(6.6E-16,1.,0.));
#109 = DIRECTION('',(-2.2E-16,1.452E-31,1.));
#110 = ADVANCED_FACE('',(#111,#129),#163,.T.);
#111 = FACE_BOUND('',#112,.F.);
#112 = EDGE_LOOP('',(#113,#114,#122,#128));
#113 = ORIENTED_EDGE('',*,*,#47,.T.);
#114 = ORIENTED_EDGE('',*,*,#115,.T.);
#115 = EDGE_CURVE('',#40,#116,#118,.T.);
#116 = VERTEX_POINT('',#117);
#117 = CARTESIAN_POINT('',(3.E-15,12.5,-12.5));
#118 = LINE('',#119,#120);
#119 = CARTESIAN_POINT('',(5.55E-15,12.5,12.5));
#120 = VECTOR('',#121,1.);
#121 = DIRECTION('',(-2.2E-16,-2.2E-16,-1.));
#122 = ORIENTED_EDGE('',*,*,#123,.T.);
#123 = EDGE_CURVE('',#116,#73,#124,.T.);
#124 = LINE('',#125,#126);
#125 = CARTESIAN_POINT('',(0.,12.5,-12.5));
#126 = VECTOR('',#127,1.);
#127 = DIRECTION('',(-2.2E-16,-1.,-2.2E-16));
#128 = ORIENTED_EDGE('',*,*,#89,.T.);
#129 = FACE_BOUND('',#130,.T.);
#130 = EDGE_LOOP('',(#131,#141,#149,#157));
#131 = ORIENTED_EDGE('',*,*,#132,.T.);
#132 = EDGE_CURVE('',#133,#135,#137,.T.);
#133 = VERTEX_POINT('',#134);
#134 = CARTESIAN_POINT('',(-2.E-15,-10.5,10.5));
#135 = VERTEX_POINT('',#136);
#136 = CARTESIAN_POINT('',(2.E-15,10.5,10.5));
#137 = LINE('',#138,#139);
#138 = CARTESIAN_POINT('',(0.,-10.5,10.5));
#139 = VECTOR('',#140,1.);
#140 = DIRECTION('',(2.2E-16,1.,2.2E-16));
#141 = ORIENTED_EDGE('',*,*,#142,.T.);
#142 = EDGE_CURVE('',#135,#143,#145,.T.);
#143 = VERTEX_POINT('',#144);
#144 = CARTESIAN_POINT('',(2.E-15,10.5,-10.5));
#145 = LINE('',#146,#147);
#146 = CARTESIAN_POINT('',(4.66E-15,10.5,10.5));
#147 = VECTOR('',#148,1.);
#148 = DIRECTION('',(-2.2E-16,-2.2E-16,-1.));
#149 = ORIENTED_EDGE('',*,*,#150,.T.);
#150 = EDGE_CURVE('',#143,#151,#153,.T.);
#151 = VERTEX_POINT('',#152);
#152 = CARTESIAN_POINT('',(-2.E-15,-10.5,-10.5));
#153 = LINE('',#154,#155);
#154 = CARTESIAN_POINT('',(0.,10.5,-10.5));
#155 = VECTOR('',#156,1.);
#156 = DIRECTION('',(-2.2E-16,-1.,-2.2E-16));
#157 = ORIENTED_EDGE('',*,*,#158,.T.);
#158 = EDGE_CURVE('',#151,#133,#159,.T.);
#159 = LINE('',#160,#161);
#160 = CARTESIAN_POINT('',(-4.66E-15,-10.5,-10.5));
#161 = VECTOR('',#162,1.);
#162 = DIRECTION('',(2.2E-16,2.2E-16,1.));
#163 = PLANE('',#164);
#164 = AXIS2_PLACEMENT_3D('',#165,#166,#167);
#165 = CARTESIAN_POINT('',(0.,0.,0.));
#166 = DIRECTION('',(1.,0.,4.4E-16));
#167 = DIRECTION('',(-4.4E-16,2.2E-16,1.));
#168 = ADVANCED_FACE('',(#169,#187),#221,.F.);
#169 = FACE_BOUND('',#170,.T.);
#170 = EDGE_LOOP('',(#171,#172,#180,#186));
#171 = ORIENTED_EDGE('',*,*,#31,.T.);
#172 = ORIENTED_EDGE('',*,*,#173,.T.);
#173 = EDGE_CURVE('',#32,#174,#176,.T.);
#174 = VERTEX_POINT('',#175);
#175 = CARTESIAN_POINT('',(-85.,12.5,-12.5));
#176 = LINE('',#177,#178);
#177 = CARTESIAN_POINT('',(-85.,12.5,12.5));
#178 = VECTOR('',#179,1.);
#179 = DIRECTION('',(-2.2E-16,-2.2E-16,-1.));
#180 = ORIENTED_EDGE('',*,*,#181,.T.);
#181 = EDGE_CURVE('',#174,#75,#182,.T.);
#182 = LINE('',#183,#184);
#183 = CARTESIAN_POINT('',(-85.,12.5,-12.5));
#184 = VECTOR('',#185,1.);
#185 = DIRECTION('',(-2.2E-16,-1.,-2.2E-16));
#186 = ORIENTED_EDGE('',*,*,#82,.T.);
#187 = FACE_BOUND('',#188,.F.);
#188 = EDGE_LOOP('',(#189,#199,#207,#215));
#189 = ORIENTED_EDGE('',*,*,#190,.T.);
#190 = EDGE_CURVE('',#191,#193,#195,.T.);
#191 = VERTEX_POINT('',#192);
#192 = CARTESIAN_POINT('',(-85.,-10.5,10.5));
#193 = VERTEX_POINT('',#194);
#194 = CARTESIAN_POINT('',(-85.,10.5,10.5));
#195 = LINE('',#196,#197);
#196 = CARTESIAN_POINT('',(-85.,-10.5,10.5));
#197 = VECTOR('',#198,1.);
#198 = DIRECTION('',(2.2E-16,1.,2.2E-16));
#199 = ORIENTED_EDGE('',*,*,#200,.T.);
#200 = EDGE_CURVE('',#193,#201,#203,.T.);
#201 = VERTEX_POINT('',#202);
#202 = CARTESIAN_POINT('',(-85.,10.5,-10.5));
#203 = LINE('',#204,#205);
#204 = CARTESIAN_POINT('',(-85.,10.5,10.5));
#205 = VECTOR('',#206,1.);
#206 = DIRECTION('',(-2.2E-16,-2.2E-16,-1.));
#207 = ORIENTED_EDGE('',*,*,#208,.T.);
#208 = EDGE_CURVE('',#201,#209,#211,.T.);
#209 = VERTEX_POINT('',#210);
#210 = CARTESIAN_POINT('',(-85.,-10.5,-10.5));
#211 = LINE('',#212,#213);
#212 = CARTESIAN_POINT('',(-85.,10.5,-10.5));
#213 = VECTOR('',#214,1.);
#214 = DIRECTION('',(-2.2E-16,-1.,-2.2E-16));
#215 = ORIENTED_EDGE('',*,*,#216,.T.);
#216 = EDGE_CURVE('',#209,#191,#217,.T.);
#217 = LINE('',#218,#219);
#218 = CARTESIAN_POINT('',(-85.,-10.5,-10.5));
#219 = VECTOR('',#220,1.);
#220 = DIRECTION('',(2.2E-16,2.2E-16,1.));
#221 = PLANE('',#222);
#222 = AXIS2_PLACEMENT_3D('',#223,#224,#225);
#223 = CARTESIAN_POINT('',(-85.,3.8E-14,-7.105427357601E-14));
#224 = DIRECTION('',(1.,0.,4.4E-16));
#225 = DIRECTION('',(-4.4E-16,2.2E-16,1.));
#226 = ADVANCED_FACE('',(#227,#238),#249,.F.);
#227 = FACE_BOUND('',#228,.F.);
#228 = EDGE_LOOP('',(#229,#230,#231,#237));
#229 = ORIENTED_EDGE('',*,*,#39,.T.);
#230 = ORIENTED_EDGE('',*,*,#173,.T.);
#231 = ORIENTED_EDGE('',*,*,#232,.F.);
#232 = EDGE_CURVE('',#116,#174,#233,.T.);
#233 = LINE('',#234,#235);
#234 = CARTESIAN_POINT('',(8.33E-15,12.5,-12.5));
#235 = VECTOR('',#236,1.);
#236 = DIRECTION('',(-1.,2.2E-16,-5.E-16));
#237 = ORIENTED_EDGE('',*,*,#115,.F.);
#238 = FACE_BOUND('',#239,.F.);
#239 = EDGE_LOOP('',(#240));
#240 = ORIENTED_EDGE('',*,*,#241,.T.);
#241 = EDGE_CURVE('',#242,#242,#244,.T.);
#242 = VERTEX_POINT('',#243);
#243 = CARTESIAN_POINT('',(-75.75,12.5,-1.4E-14));
#244 = CIRCLE('',#245,3.25);
#245 = AXIS2_PLACEMENT_3D('',#246,#247,#248);
#246 = CARTESIAN_POINT('',(-72.5,12.5,-3.E-15));
#247 = DIRECTION('',(1.E-17,1.,0.));
#248 = DIRECTION('',(-1.,1.E-17,-2.2E-16));
#249 = PLANE('',#250);
#250 = AXIS2_PLACEMENT_3D('',#251,#252,#253);
#251 = CARTESIAN_POINT('',(2.77E-15,12.5,12.5));
#252 = DIRECTION('',(-6.6E-16,-1.,-0.));
#253 = DIRECTION('',(2.2E-16,-1.452E-31,-1.));
#254 = ADVANCED_FACE('',(#255),#274,.F.);
#255 = FACE_BOUND('',#256,.F.);
#256 = EDGE_LOOP('',(#257,#266,#272,#273));
#257 = ORIENTED_EDGE('',*,*,#258,.F.);
#258 = EDGE_CURVE('',#259,#259,#261,.T.);
#259 = VERTEX_POINT('',#260);
#260 = CARTESIAN_POINT('',(-15.75,2.E-15,10.5));
#261 = CIRCLE('',#262,3.25);
#262 = AXIS2_PLACEMENT_3D('',#263,#264,#265);
#263 = CARTESIAN_POINT('',(-12.5,-9.92E-15,10.5));
#264 = DIRECTION('',(2.3E-16,2.E-16,-1.));
#265 = DIRECTION('',(-1.,2.E-16,-2.3E-16));
#266 = ORIENTED_EDGE('',*,*,#267,.T.);
#267 = EDGE_CURVE('',#259,#56,#268,.T.);
#268 = LINE('',#269,#270);
#269 = CARTESIAN_POINT('',(-15.75,1.142E-14,-92.98036082958));
#270 = VECTOR('',#271,1.);
#271 = DIRECTION('',(-1.2E-16,-9.E-17,1.));
#272 = ORIENTED_EDGE('',*,*,#55,.T.);
#273 = ORIENTED_EDGE('',*,*,#267,.F.);
#274 = CYLINDRICAL_SURFACE('',#275,3.25);
#275 = AXIS2_PLACEMENT_3D('',#276,#277,#278);
#276 = CARTESIAN_POINT('',(-12.5,1.077E-14,-92.98036082958));
#277 = DIRECTION('',(2.3E-16,2.E-16,-1.));
#278 = DIRECTION('',(-1.,2.E-16,-2.3E-16));
#279 = ADVANCED_FACE('',(#280,#286),#297,.F.);
#280 = FACE_BOUND('',#281,.F.);
#281 = EDGE_LOOP('',(#282,#283,#284,#285));
#282 = ORIENTED_EDGE('',*,*,#232,.T.);
#283 = ORIENTED_EDGE('',*,*,#181,.T.);
#284 = ORIENTED_EDGE('',*,*,#72,.F.);
#285 = ORIENTED_EDGE('',*,*,#123,.F.);
#286 = FACE_BOUND('',#287,.F.);
#287 = EDGE_LOOP('',(#288));
#288 = ORIENTED_EDGE('',*,*,#289,.T.);
#289 = EDGE_CURVE('',#290,#290,#292,.T.);
#290 = VERTEX_POINT('',#291);
#291 = CARTESIAN_POINT('',(-15.75,4.E-15,-12.5));
#292 = CIRCLE('',#293,3.25);
#293 = AXIS2_PLACEMENT_3D('',#294,#295,#296);
#294 = CARTESIAN_POINT('',(-12.5,-5.32E-15,-12.5));
#295 = DIRECTION('',(2.3E-16,2.E-16,-1.));
#296 = DIRECTION('',(-1.,2.E-16,-2.3E-16));
#297 = PLANE('',#298);
#298 = AXIS2_PLACEMENT_3D('',#299,#300,#301);
#299 = CARTESIAN_POINT('',(8.33E-15,12.5,-12.5));
#300 = DIRECTION('',(-6.E-17,6.6E-16,1.));
#301 = DIRECTION('',(-4.4E-16,-1.,6.6E-16));
#302 = ADVANCED_FACE('',(#303),#322,.F.);
#303 = FACE_BOUND('',#304,.F.);
#304 = EDGE_LOOP('',(#305,#314,#320,#321));
#305 = ORIENTED_EDGE('',*,*,#306,.F.);
#306 = EDGE_CURVE('',#307,#307,#309,.T.);
#307 = VERTEX_POINT('',#308);
#308 = CARTESIAN_POINT('',(-75.75,-10.5,-1.9E-14));
#309 = CIRCLE('',#310,3.25);
#310 = AXIS2_PLACEMENT_3D('',#311,#312,#313);
#311 = CARTESIAN_POINT('',(-72.5,-10.5,-8.11E-15));
#312 = DIRECTION('',(1.E-17,1.,0.));
#313 = DIRECTION('',(-1.,1.E-17,-2.2E-16));
#314 = ORIENTED_EDGE('',*,*,#315,.T.);
#315 = EDGE_CURVE('',#307,#98,#316,.T.);
#316 = LINE('',#317,#318);
#317 = CARTESIAN_POINT('',(-75.75,92.980360829586,1.415E-14));
#318 = VECTOR('',#319,1.);
#319 = DIRECTION('',(-3.4E-16,-1.,-3.3E-16));
#320 = ORIENTED_EDGE('',*,*,#97,.T.);
#321 = ORIENTED_EDGE('',*,*,#315,.F.);
#322 = CYLINDRICAL_SURFACE('',#323,3.25);
#323 = AXIS2_PLACEMENT_3D('',#324,#325,#326);
#324 = CARTESIAN_POINT('',(-72.5,92.980360829586,1.487E-14));
#325 = DIRECTION('',(2.3E-16,1.,2.2E-16));
#326 = DIRECTION('',(-1.,2.3E-16,-2.2E-16));
#327 = ADVANCED_FACE('',(#328,#344),#347,.T.);
#328 = FACE_BOUND('',#329,.T.);
#329 = EDGE_LOOP('',(#330,#336,#337,#343));
#330 = ORIENTED_EDGE('',*,*,#331,.T.);
#331 = EDGE_CURVE('',#133,#191,#332,.T.);
#332 = LINE('',#333,#334);
#333 = CARTESIAN_POINT('',(-6.99E-15,-10.5,10.5));
#334 = VECTOR('',#335,1.);
#335 = DIRECTION('',(-1.,2.2E-16,-5.E-16));
#336 = ORIENTED_EDGE('',*,*,#190,.T.);
#337 = ORIENTED_EDGE('',*,*,#338,.F.);
#338 = EDGE_CURVE('',#135,#193,#339,.T.);
#339 = LINE('',#340,#341);
#340 = CARTESIAN_POINT('',(2.33E-15,10.5,10.5));
#341 = VECTOR('',#342,1.);
#342 = DIRECTION('',(-1.,2.2E-16,-5.E-16));
#343 = ORIENTED_EDGE('',*,*,#132,.F.);
#344 = FACE_BOUND('',#345,.T.);
#345 = EDGE_LOOP('',(#346));
#346 = ORIENTED_EDGE('',*,*,#258,.F.);
#347 = PLANE('',#348);
#348 = AXIS2_PLACEMENT_3D('',#349,#350,#351);
#349 = CARTESIAN_POINT('',(-6.99E-15,-10.5,10.5));
#350 = DIRECTION('',(6.E-17,-6.6E-16,-1.));
#351 = DIRECTION('',(4.4E-16,1.,-6.6E-16));
#352 = ADVANCED_FACE('',(#353,#364),#375,.T.);
#353 = FACE_BOUND('',#354,.T.);
#354 = EDGE_LOOP('',(#355,#356,#357,#363));
#355 = ORIENTED_EDGE('',*,*,#338,.T.);
#356 = ORIENTED_EDGE('',*,*,#200,.T.);
#357 = ORIENTED_EDGE('',*,*,#358,.F.);
#358 = EDGE_CURVE('',#143,#201,#359,.T.);
#359 = LINE('',#360,#361);
#360 = CARTESIAN_POINT('',(6.99E-15,10.5,-10.5));
#361 = VECTOR('',#362,1.);
#362 = DIRECTION('',(-1.,2.2E-16,-5.E-16));
#363 = ORIENTED_EDGE('',*,*,#142,.F.);
#364 = FACE_BOUND('',#365,.T.);
#365 = EDGE_LOOP('',(#366));
#366 = ORIENTED_EDGE('',*,*,#367,.T.);
#367 = EDGE_CURVE('',#368,#368,#370,.T.);
#368 = VERTEX_POINT('',#369);
#369 = CARTESIAN_POINT('',(-75.75,10.5,-1.4E-14));
#370 = CIRCLE('',#371,3.25);
#371 = AXIS2_PLACEMENT_3D('',#372,#373,#374);
#372 = CARTESIAN_POINT('',(-72.5,10.5,-3.44E-15));
#373 = DIRECTION('',(1.E-17,1.,0.));
#374 = DIRECTION('',(-1.,1.E-17,-2.2E-16));
#375 = PLANE('',#376);
#376 = AXIS2_PLACEMENT_3D('',#377,#378,#379);
#377 = CARTESIAN_POINT('',(2.33E-15,10.5,10.5));
#378 = DIRECTION('',(-6.6E-16,-1.,-0.));
#379 = DIRECTION('',(2.2E-16,-1.452E-31,-1.));
#380 = ADVANCED_FACE('',(#381,#392),#403,.T.);
#381 = FACE_BOUND('',#382,.T.);
#382 = EDGE_LOOP('',(#383,#384,#385,#391));
#383 = ORIENTED_EDGE('',*,*,#358,.T.);
#384 = ORIENTED_EDGE('',*,*,#208,.T.);
#385 = ORIENTED_EDGE('',*,*,#386,.F.);
#386 = EDGE_CURVE('',#151,#209,#387,.T.);
#387 = LINE('',#388,#389);
#388 = CARTESIAN_POINT('',(-2.33E-15,-10.5,-10.5));
#389 = VECTOR('',#390,1.);
#390 = DIRECTION('',(-1.,2.2E-16,-5.E-16));
#391 = ORIENTED_EDGE('',*,*,#150,.F.);
#392 = FACE_BOUND('',#393,.T.);
#393 = EDGE_LOOP('',(#394));
#394 = ORIENTED_EDGE('',*,*,#395,.T.);
#395 = EDGE_CURVE('',#396,#396,#398,.T.);
#396 = VERTEX_POINT('',#397);
#397 = CARTESIAN_POINT('',(-15.75,4.E-15,-10.5));
#398 = CIRCLE('',#399,3.25);
#399 = AXIS2_PLACEMENT_3D('',#400,#401,#402);
#400 = CARTESIAN_POINT('',(-12.5,-5.72E-15,-10.5));
#401 = DIRECTION('',(2.3E-16,2.E-16,-1.));
#402 = DIRECTION('',(-1.,2.E-16,-2.3E-16));
#403 = PLANE('',#404);
#404 = AXIS2_PLACEMENT_3D('',#405,#406,#407);
#405 = CARTESIAN_POINT('',(6.99E-15,10.5,-10.5));
#406 = DIRECTION('',(-6.E-17,6.6E-16,1.));
#407 = DIRECTION('',(-4.4E-16,-1.,6.6E-16));
#408 = ADVANCED_FACE('',(#409,#415),#418,.T.);
#409 = FACE_BOUND('',#410,.T.);
#410 = EDGE_LOOP('',(#411,#412,#413,#414));
#411 = ORIENTED_EDGE('',*,*,#386,.T.);
#412 = ORIENTED_EDGE('',*,*,#216,.T.);
#413 = ORIENTED_EDGE('',*,*,#331,.F.);
#414 = ORIENTED_EDGE('',*,*,#158,.F.);
#415 = FACE_BOUND('',#416,.T.);
#416 = EDGE_LOOP('',(#417));
#417 = ORIENTED_EDGE('',*,*,#306,.F.);
#418 = PLANE('',#419);
#419 = AXIS2_PLACEMENT_3D('',#420,#421,#422);
#420 = CARTESIAN_POINT('',(-2.33E-15,-10.5,-10.5));
#421 = DIRECTION('',(6.6E-16,1.,0.));
#422 = DIRECTION('',(-2.2E-16,1.452E-31,1.));
#423 = ADVANCED_FACE('',(#424),#435,.F.);
#424 = FACE_BOUND('',#425,.F.);
#425 = EDGE_LOOP('',(#426,#427,#433,#434));
#426 = ORIENTED_EDGE('',*,*,#241,.F.);
#427 = ORIENTED_EDGE('',*,*,#428,.T.);
#428 = EDGE_CURVE('',#242,#368,#429,.T.);
#429 = LINE('',#430,#431);
#430 = CARTESIAN_POINT('',(-75.75,92.980360829586,1.415E-14));
#431 = VECTOR('',#432,1.);
#432 = DIRECTION('',(-3.4E-16,-1.,-3.3E-16));
#433 = ORIENTED_EDGE('',*,*,#367,.T.);
#434 = ORIENTED_EDGE('',*,*,#428,.F.);
#435 = CYLINDRICAL_SURFACE('',#436,3.25);
#436 = AXIS2_PLACEMENT_3D('',#437,#438,#439);
#437 = CARTESIAN_POINT('',(-72.5,92.980360829586,1.487E-14));
#438 = DIRECTION('',(2.3E-16,1.,2.2E-16));
#439 = DIRECTION('',(-1.,2.3E-16,-2.2E-16));
#440 = ADVANCED_FACE('',(#441),#452,.F.);
#441 = FACE_BOUND('',#442,.F.);
#442 = EDGE_LOOP('',(#443,#444,#450,#451));
#443 = ORIENTED_EDGE('',*,*,#289,.F.);
#444 = ORIENTED_EDGE('',*,*,#445,.T.);
#445 = EDGE_CURVE('',#290,#396,#446,.T.);
#446 = LINE('',#447,#448);
#447 = CARTESIAN_POINT('',(-15.75,1.142E-14,-92.98036082958));
#448 = VECTOR('',#449,1.);
#449 = DIRECTION('',(-1.2E-16,-9.E-17,1.));
#450 = ORIENTED_EDGE('',*,*,#395,.T.);
#451 = ORIENTED_EDGE('',*,*,#445,.F.);
#452 = CYLINDRICAL_SURFACE('',#453,3.25);
#453 = AXIS2_PLACEMENT_3D('',#454,#455,#456);
#454 = CARTESIAN_POINT('',(-12.5,1.077E-14,-92.98036082958));
#455 = DIRECTION('',(2.3E-16,2.E-16,-1.));
#456 = DIRECTION('',(-1.,2.E-16,-2.3E-16));
#457 = ( GEOMETRIC_REPRESENTATION_CONTEXT(3) 
GLOBAL_UNCERTAINTY_ASSIGNED_CONTEXT((#461)) GLOBAL_UNIT_ASSIGNED_CONTEXT
((#458,#459,#460)) REPRESENTATION_CONTEXT('Context #1',
  '3D Context with UNIT and UNCERTAINTY') );
#458 = ( LENGTH_UNIT() NAMED_UNIT(*) SI_UNIT(.MILLI.,.METRE.) );
#459 = ( NAMED_UNIT(*) PLANE_ANGLE_UNIT() SI_UNIT($,.RADIAN.) );
#460 = ( NAMED_UNIT(*) SI_UNIT($,.STERADIAN.) SOLID_ANGLE_UNIT() );
#461 = UNCERTAINTY_MEASURE_WITH_UNIT(LENGTH_MEASURE(1.E-07),#458,
  'distance_accuracy_value','confusion accuracy');
#462 = PRODUCT_RELATED_PRODUCT_CATEGORY('part',$,(#7));
#463 = MECHANICAL_DESIGN_GEOMETRIC_PRESENTATION_REPRESENTATION('',(#464)
  ,#457);
#464 = STYLED_ITEM('color',(#465),#15);
#465 = PRESENTATION_STYLE_ASSIGNMENT((#466,#472));
#466 = SURFACE_STYLE_USAGE(.BOTH.,#467);
#467 = SURFACE_SIDE_STYLE('',(#468));
#468 = SURFACE_STYLE_FILL_AREA(#469);
#469 = FILL_AREA_STYLE('',(#470));
#470 = FILL_AREA_STYLE_COLOUR('',#471);
#471 = COLOUR_RGB('',0.800000010877,0.800000010877,0.800000010877);
#472 = CURVE_STYLE('',#473,POSITIVE_LENGTH_MEASURE(0.1),#474);
#473 = DRAUGHTING_PRE_DEFINED_CURVE_FONT('continuous');
#474 = COLOUR_RGB('',9.803921802644E-02,9.803921802644E-02,
  9.803921802644E-02);
ENDSEC;
END-ISO-10303-21;
